ISO-10303-21;
HEADER;
FILE_DESCRIPTION (( 'STEP AP203' ),
    '1' );
FILE_NAME ('Q-AZHWP-25.4-266-M.STEP',
    '2020-12-22T09:09:49',
    ( '' ),
    ( '' ),
    'SwSTEP 2.0',
    'SolidWorks 2020',
    '' );
FILE_SCHEMA (( 'CONFIG_CONTROL_DESIGN' ));
ENDSEC;

DATA;
#1 = CARTESIAN_POINT ( 'NONE',  ( -1.614212418857619014, 0.000000000000000000, 0.000000000000000000 ) ) ;
#2 = DIRECTION ( 'NONE',  ( 0.000000000000000000, 0.000000000000000000, -1.000000000000000000 ) ) ;
#3 =( NAMED_UNIT ( * ) PLANE_ANGLE_UNIT ( ) SI_UNIT ( $, .RADIAN. ) );
#4 = PRODUCT_DEFINITION_SHAPE ( 'NONE', 'NONE',  #27 ) ;
#5 = ADVANCED_FACE ( 'NONE', ( #128 ), #86, .F. ) ;
#6 = APPLICATION_PROTOCOL_DEFINITION ( 'international standard', 'config_control_design', 1994, #42 ) ;
#7 = ADVANCED_BREP_SHAPE_REPRESENTATION ( 'Q-AZHWP-25.4-266-M', ( #113, #90 ), #67 ) ;
#8 = PERSON_AND_ORGANIZATION ( #108, #15 ) ;
#9 = CC_DESIGN_PERSON_AND_ORGANIZATION_ASSIGNMENT ( #62, #122, ( #120 ) ) ;
#10 = CC_DESIGN_APPROVAL ( #136, ( #73 ) ) ;
#11 = LINE ( 'NONE', #30, #49 ) ;
#12 = EDGE_CURVE ( 'NONE', #147, #95, #172, .T. ) ;
#13 = DIRECTION ( 'NONE',  ( -1.000000000000000000, -0.000000000000000000, -0.000000000000000000 ) ) ;
#14 = CC_DESIGN_DATE_AND_TIME_ASSIGNMENT ( #125, #155, ( #73 ) ) ;
#15 = ORGANIZATION ( 'UNSPECIFIED', 'UNSPECIFIED', '' ) ;
#16 = DIRECTION ( 'NONE',  ( -0.000000000000000000, 0.000000000000000000, 1.000000000000000000 ) ) ;
#17 = ORIENTED_EDGE ( 'NONE', *, *, #46, .F. ) ;
#18 = APPROVAL_STATUS ( 'not_yet_approved' ) ;
#19 = AXIS2_PLACEMENT_3D ( 'NONE', #166, #99, #2 ) ;
#20 = CC_DESIGN_APPROVAL ( #63, ( #27 ) ) ;
#21 = CALENDAR_DATE ( 2020, 22, 12 ) ;
#22 = DATE_AND_TIME ( #38, #110 ) ;
#23 = COORDINATED_UNIVERSAL_TIME_OFFSET ( 8, 0, .AHEAD. ) ;
#24 = AXIS2_PLACEMENT_3D ( 'NONE', #137, #149, #16 ) ;
#25 = APPROVAL_PERSON_ORGANIZATION ( #168, #136, #107 ) ;
#26 = DATE_AND_TIME ( #92, #98 ) ;
#27 = PRODUCT_DEFINITION ( 'UNKNOWN', '', #44, #81 ) ;
#28 = VECTOR ( 'NONE', #91, 1000.000000000000000 ) ;
#29 = EDGE_LOOP ( 'NONE', ( #55, #138 ) ) ;
#30 = CARTESIAN_POINT ( 'NONE',  ( -1.614212418857619014, 1.836970198721029589E-15, -15.00000000000000000 ) ) ;
#31 = CARTESIAN_POINT ( 'NONE',  ( 3.000000000000000000, 0.000000000000000000, 0.000000000000000000 ) ) ;
#32 = ORIENTED_EDGE ( 'NONE', *, *, #41, .F. ) ;
#33 = CC_DESIGN_SECURITY_CLASSIFICATION ( #73, ( #44 ) ) ;
#34 = LOCAL_TIME ( 17, 9, 49.00000000000000000, #23 ) ;
#35 = CARTESIAN_POINT ( 'NONE',  ( -1.614212418857619014, 0.000000000000000000, 15.00000000000000000 ) ) ;
#36 = AXIS2_PLACEMENT_3D ( 'NONE', #1, #60, #43 ) ;
#37 =( NAMED_UNIT ( * ) SI_UNIT ( $, .STERADIAN. ) SOLID_ANGLE_UNIT ( ) );
#38 = CALENDAR_DATE ( 2020, 22, 12 ) ;
#39 = CALENDAR_DATE ( 2020, 22, 12 ) ;
#40 = DATE_AND_TIME ( #21, #57 ) ;
#41 = EDGE_CURVE ( 'NONE', #95, #77, #11, .T. ) ;
#42 = APPLICATION_CONTEXT ( 'configuration controlled 3d designs of mechanical parts and assemblies' ) ;
#43 = DIRECTION ( 'NONE',  ( 0.000000000000000000, 0.000000000000000000, 1.000000000000000000 ) ) ;
#44 = PRODUCT_DEFINITION_FORMATION_WITH_SPECIFIED_SOURCE ( 'ANY', '', #120, .NOT_KNOWN. ) ;
#45 = DIRECTION ( 'NONE',  ( 0.000000000000000000, 0.000000000000000000, 1.000000000000000000 ) ) ;
#46 = EDGE_CURVE ( 'NONE', #115, #77, #75, .T. ) ;
#47 = CARTESIAN_POINT ( 'NONE',  ( 3.000000000000000000, 1.836970198721029589E-15, -15.00000000000000000 ) ) ;
#48 = CC_DESIGN_DATE_AND_TIME_ASSIGNMENT ( #68, #93, ( #27 ) ) ;
#49 = VECTOR ( 'NONE', #146, 1000.000000000000000 ) ;
#50 = CARTESIAN_POINT ( 'NONE',  ( 3.000000000000000000, 0.000000000000000000, 0.000000000000000000 ) ) ;
#51 = COORDINATED_UNIVERSAL_TIME_OFFSET ( 8, 0, .AHEAD. ) ;
#52 = PERSON_AND_ORGANIZATION ( #108, #15 ) ;
#53 = COORDINATED_UNIVERSAL_TIME_OFFSET ( 8, 0, .AHEAD. ) ;
#54 = PERSON_AND_ORGANIZATION_ROLE ( 'classification_officer' ) ;
#55 = ORIENTED_EDGE ( 'NONE', *, *, #12, .F. ) ;
#56 = CYLINDRICAL_SURFACE ( 'NONE', #161, 15.00000000000000000 ) ;
#57 = LOCAL_TIME ( 17, 9, 49.00000000000000000, #51 ) ;
#58 = DIRECTION ( 'NONE',  ( 0.000000000000000000, 0.000000000000000000, 1.000000000000000000 ) ) ;
#59 = ADVANCED_FACE ( 'NONE', ( #160 ), #56, .T. ) ;
#60 = DIRECTION ( 'NONE',  ( -1.000000000000000000, -0.000000000000000000, -0.000000000000000000 ) ) ;
#61 = AXIS2_PLACEMENT_3D ( 'NONE', #50, #150, #129 ) ;
#62 = PERSON_AND_ORGANIZATION ( #108, #15 ) ;
#63 = APPROVAL ( #18, 'UNSPECIFIED' ) ;
#64 = CARTESIAN_POINT ( 'NONE',  ( -3.000000000000000000, 0.000000000000000000, 15.00000000000000000 ) ) ;
#65 = PERSON_AND_ORGANIZATION_ROLE ( 'creator' ) ;
#66 = CALENDAR_DATE ( 2020, 22, 12 ) ;
#67 =( GEOMETRIC_REPRESENTATION_CONTEXT ( 3 ) GLOBAL_UNCERTAINTY_ASSIGNED_CONTEXT ( ( #135 ) ) GLOBAL_UNIT_ASSIGNED_CONTEXT ( ( #167, #3, #37 ) ) REPRESENTATION_CONTEXT ( 'NONE', 'WORKASPACE' ) );
#68 = DATE_AND_TIME ( #66, #34 ) ;
#69 = CC_DESIGN_PERSON_AND_ORGANIZATION_ASSIGNMENT ( #52, #105, ( #44 ) ) ;
#70 = COORDINATED_UNIVERSAL_TIME_OFFSET ( 8, 0, .AHEAD. ) ;
#71 = APPROVAL_DATE_TIME ( #26, #63 ) ;
#72 = AXIS2_PLACEMENT_3D ( 'NONE', #31, #162, #78 ) ;
#73 = SECURITY_CLASSIFICATION ( '', '', #131 ) ;
#74 = CARTESIAN_POINT ( 'NONE',  ( -3.000000000000000000, 0.000000000000000000, 0.000000000000000000 ) ) ;
#75 = CIRCLE ( 'NONE', #169, 15.00000000000000000 ) ;
#76 = ADVANCED_FACE ( 'NONE', ( #159 ), #88, .T. ) ;
#77 = VERTEX_POINT ( 'NONE', #79 ) ;
#78 = DIRECTION ( 'NONE',  ( 0.000000000000000000, 0.000000000000000000, 1.000000000000000000 ) ) ;
#79 = CARTESIAN_POINT ( 'NONE',  ( -3.000000000000000000, 1.836970198721029589E-15, -15.00000000000000000 ) ) ;
#80 = DIRECTION ( 'NONE',  ( 1.000000000000000000, 0.000000000000000000, 0.000000000000000000 ) ) ;
#81 = DESIGN_CONTEXT ( 'detailed design', #123, 'design' ) ;
#82 = SHAPE_DEFINITION_REPRESENTATION ( #4, #7 ) ;
#83 = CC_DESIGN_PERSON_AND_ORGANIZATION_ASSIGNMENT ( #132, #133, ( #44 ) ) ;
#84 = APPROVAL_DATE_TIME ( #40, #153 ) ;
#85 = CIRCLE ( 'NONE', #103, 15.00000000000000000 ) ;
#86 = PLANE ( 'NONE',  #24 ) ;
#87 = ORIENTED_EDGE ( 'NONE', *, *, #163, .F. ) ;
#88 = CYLINDRICAL_SURFACE ( 'NONE', #36, 15.00000000000000000 ) ;
#89 = DIRECTION ( 'NONE',  ( -1.000000000000000000, -0.000000000000000000, -0.000000000000000000 ) ) ;
#90 = AXIS2_PLACEMENT_3D ( 'NONE', #121, #101, #80 ) ;
#91 = DIRECTION ( 'NONE',  ( -1.000000000000000000, -0.000000000000000000, -0.000000000000000000 ) ) ;
#92 = CALENDAR_DATE ( 2020, 22, 12 ) ;
#93 = DATE_TIME_ROLE ( 'creation_date' ) ;
#94 = EDGE_LOOP ( 'NONE', ( #148, #96, #17, #145 ) ) ;
#95 = VERTEX_POINT ( 'NONE', #47 ) ;
#96 = ORIENTED_EDGE ( 'NONE', *, *, #41, .T. ) ;
#97 = EDGE_LOOP ( 'NONE', ( #109, #114 ) ) ;
#98 = LOCAL_TIME ( 17, 9, 49.00000000000000000, #70 ) ;
#99 = DIRECTION ( 'NONE',  ( 1.000000000000000000, 0.000000000000000000, 0.000000000000000000 ) ) ;
#100 = CLOSED_SHELL ( 'NONE', ( #76, #5, #59, #106 ) ) ;
#101 = DIRECTION ( 'NONE',  ( 0.000000000000000000, 0.000000000000000000, 1.000000000000000000 ) ) ;
#102 = CARTESIAN_POINT ( 'NONE',  ( 3.000000000000000000, 0.000000000000000000, 15.00000000000000000 ) ) ;
#103 = AXIS2_PLACEMENT_3D ( 'NONE', #117, #124, #45 ) ;
#104 = PERSON_AND_ORGANIZATION ( #108, #15 ) ;
#105 = PERSON_AND_ORGANIZATION_ROLE ( 'design_supplier' ) ;
#106 = ADVANCED_FACE ( 'NONE', ( #164 ), #118, .F. ) ;
#107 = APPROVAL_ROLE ( '' ) ;
#108 = PERSON ( 'UNSPECIFIED', 'UNSPECIFIED', 'UNSPECIFIED', ('UNSPECIFIED'), ('UNSPECIFIED'), ('UNSPECIFIED') ) ;
#109 = ORIENTED_EDGE ( 'NONE', *, *, #46, .T. ) ;
#110 = LOCAL_TIME ( 17, 9, 49.00000000000000000, #156 ) ;
#111 = CARTESIAN_POINT ( 'NONE',  ( -1.614212418857619014, 0.000000000000000000, 0.000000000000000000 ) ) ;
#112 = APPROVAL_PERSON_ORGANIZATION ( #140, #63, #171 ) ;
#113 = MANIFOLD_SOLID_BREP ( 'Ðý×', #100 ) ;
#114 = ORIENTED_EDGE ( 'NONE', *, *, #163, .T. ) ;
#115 = VERTEX_POINT ( 'NONE', #64 ) ;
#116 = LOCAL_TIME ( 17, 9, 49.00000000000000000, #53 ) ;
#117 = CARTESIAN_POINT ( 'NONE',  ( -3.000000000000000000, 0.000000000000000000, 0.000000000000000000 ) ) ;
#118 = PLANE ( 'NONE',  #19 ) ;
#119 = EDGE_CURVE ( 'NONE', #95, #147, #134, .T. ) ;
#120 = PRODUCT ( 'Q-AZHWP-25.4-266-M', 'Q-AZHWP-25.4-266-M', '', ( #141 ) ) ;
#121 = CARTESIAN_POINT ( 'NONE',  ( 0.000000000000000000, 0.000000000000000000, 0.000000000000000000 ) ) ;
#122 = PERSON_AND_ORGANIZATION_ROLE ( 'design_owner' ) ;
#123 = APPLICATION_CONTEXT ( 'configuration controlled 3d designs of mechanical parts and assemblies' ) ;
#124 = DIRECTION ( 'NONE',  ( -1.000000000000000000, -0.000000000000000000, -0.000000000000000000 ) ) ;
#125 = DATE_AND_TIME ( #39, #116 ) ;
#126 = CC_DESIGN_PERSON_AND_ORGANIZATION_ASSIGNMENT ( #8, #54, ( #73 ) ) ;
#127 = APPROVAL_ROLE ( '' ) ;
#128 = FACE_OUTER_BOUND ( 'NONE', #29, .T. ) ;
#129 = DIRECTION ( 'NONE',  ( 0.000000000000000000, 0.000000000000000000, 1.000000000000000000 ) ) ;
#130 = APPLICATION_PROTOCOL_DEFINITION ( 'international standard', 'config_control_design', 1994, #123 ) ;
#131 = SECURITY_CLASSIFICATION_LEVEL ( 'unclassified' ) ;
#132 = PERSON_AND_ORGANIZATION ( #108, #15 ) ;
#133 = PERSON_AND_ORGANIZATION_ROLE ( 'creator' ) ;
#134 = CIRCLE ( 'NONE', #61, 15.00000000000000000 ) ;
#135 = UNCERTAINTY_MEASURE_WITH_UNIT (LENGTH_MEASURE( 1.000000000000000082E-05 ), #167, 'distance_accuracy_value', 'NONE');
#136 = APPROVAL ( #154, 'UNSPECIFIED' ) ;
#137 = CARTESIAN_POINT ( 'NONE',  ( 3.000000000000000888, 12.69999999999999929, 0.000000000000000000 ) ) ;
#138 = ORIENTED_EDGE ( 'NONE', *, *, #119, .F. ) ;
#139 = ORIENTED_EDGE ( 'NONE', *, *, #119, .T. ) ;
#140 = PERSON_AND_ORGANIZATION ( #108, #15 ) ;
#141 = MECHANICAL_CONTEXT ( 'NONE', #42, 'mechanical' ) ;
#142 = APPROVAL_PERSON_ORGANIZATION ( #173, #153, #127 ) ;
#143 = APPROVAL_STATUS ( 'not_yet_approved' ) ;
#144 = APPROVAL_DATE_TIME ( #22, #136 ) ;
#145 = ORIENTED_EDGE ( 'NONE', *, *, #170, .F. ) ;
#146 = DIRECTION ( 'NONE',  ( -1.000000000000000000, -0.000000000000000000, -0.000000000000000000 ) ) ;
#147 = VERTEX_POINT ( 'NONE', #102 ) ;
#148 = ORIENTED_EDGE ( 'NONE', *, *, #12, .T. ) ;
#149 = DIRECTION ( 'NONE',  ( -1.000000000000000000, 0.000000000000000000, -0.000000000000000000 ) ) ;
#150 = DIRECTION ( 'NONE',  ( -1.000000000000000000, -0.000000000000000000, -0.000000000000000000 ) ) ;
#151 = CC_DESIGN_APPROVAL ( #153, ( #44 ) ) ;
#152 = LINE ( 'NONE', #35, #28 ) ;
#153 = APPROVAL ( #143, 'UNSPECIFIED' ) ;
#154 = APPROVAL_STATUS ( 'not_yet_approved' ) ;
#155 = DATE_TIME_ROLE ( 'classification_date' ) ;
#156 = COORDINATED_UNIVERSAL_TIME_OFFSET ( 8, 0, .AHEAD. ) ;
#157 = ORIENTED_EDGE ( 'NONE', *, *, #170, .T. ) ;
#158 = PRODUCT_RELATED_PRODUCT_CATEGORY ( 'detail', '', ( #120 ) ) ;
#159 = FACE_OUTER_BOUND ( 'NONE', #94, .T. ) ;
#160 = FACE_OUTER_BOUND ( 'NONE', #174, .T. ) ;
#161 = AXIS2_PLACEMENT_3D ( 'NONE', #111, #89, #58 ) ;
#162 = DIRECTION ( 'NONE',  ( -1.000000000000000000, -0.000000000000000000, -0.000000000000000000 ) ) ;
#163 = EDGE_CURVE ( 'NONE', #77, #115, #85, .T. ) ;
#164 = FACE_OUTER_BOUND ( 'NONE', #97, .T. ) ;
#165 = CC_DESIGN_PERSON_AND_ORGANIZATION_ASSIGNMENT ( #104, #65, ( #27 ) ) ;
#166 = CARTESIAN_POINT ( 'NONE',  ( -3.000000000000000888, 12.69999999999999929, 0.000000000000000000 ) ) ;
#167 =( LENGTH_UNIT ( ) NAMED_UNIT ( * ) SI_UNIT ( .MILLI., .METRE. ) );
#168 = PERSON_AND_ORGANIZATION ( #108, #15 ) ;
#169 = AXIS2_PLACEMENT_3D ( 'NONE', #74, #13, #175 ) ;
#170 = EDGE_CURVE ( 'NONE', #147, #115, #152, .T. ) ;
#171 = APPROVAL_ROLE ( '' ) ;
#172 = CIRCLE ( 'NONE', #72, 15.00000000000000000 ) ;
#173 = PERSON_AND_ORGANIZATION ( #108, #15 ) ;
#174 = EDGE_LOOP ( 'NONE', ( #32, #139, #157, #87 ) ) ;
#175 = DIRECTION ( 'NONE',  ( 0.000000000000000000, 0.000000000000000000, 1.000000000000000000 ) ) ;
ENDSEC;
END-ISO-10303-21;
